Bass Lessons .com - the bass resource.

Re: transcription bass solo you can call me al (Paul Simon)


[ Follow Ups ] [ Post Followup ] [ ElectricBass.com WWWBoard ] [ FAQ ]

Posted by Vando (69.24.33.20) on June 17, 2003 at 11:43:09:

In Reply to: transcription bass solo you can call me al (Paul Simon) posted by vermeerski on June 15, 2003 at 14:57:00:

: I'm trying and trying to figure out that bass solo. Can anyone help me playing that?

: Thanks

This is tricky, because the second half is basically played backwards on tape. This sounds close enough, anyway.

G----|--15--17------------------------------------------------|
D----|--------------15--17------------------------------------|
A----|----------17----------13--15--17--13--------------------|
E----|--------------------------------------15--15--17--15----|

G---|----------------------------------------------------------17--15--||
D---|----------------------------------------------17--15--------------||
A---|--15--17--17--15------------------17--15--------------17----------||
E---|------------------15--17--15--13----------17----------------------||



Follow Ups:



Post a Followup

Name:
E-Mail:

Subject:

Comments:

Optional Link URL:
Link Title:
Optional Image URL:


[ Follow Ups ] [ Post Followup ] [ ElectricBass.com WWWBoard ] [ FAQ ]
Acoustic Bass - Bass Books - Guitar Books - Guitars For Sale - Bass Links - Music Theory - Saxophone Forum