Re: Looking for a particular tune


[ Follow Ups ] [ Post Followup ] [ Electricbass.com WWWBoard ] [ FAQ ]

Posted by Datsgor on August 09, 2000 at 12:49:06:

In Reply to: Re: Looking for a particular tune posted by Datsgor on August 09, 2000 at 12:39:38:

: : Hi. It's clear that many of the people here have an averson to tabs, but I'll ask anyway and hope I don't get my head bitten off ;O)

: : Anyone know where I can find a good basstab to Blues Brothers "Everybody needs somebody to love"? I've tried Olga and basstabarchive, but none of these got this tune.

: : Anyone know where to grab it?

: I dont know where to find it. But i did go and figure it out, so here it is. I hope this will be understandable....

: Bass tuned to 440A(standard E tuning)

: The main part is C-F-B-F...
: The first break is A-G-F...
: let me try tab

: Main part ------------------
: ------------------
: ---- 8 8---- 8 8--
: -8 8---- 6 6------

: 1st Change -----------------------------------------------------------------------------------------------------------------------------------
: -7 7 7 7 7 7 7--------------- 5 6 7 7 7 7 7 7 7 7 -------------------------------7 10---repeat and---------------------------------
: ---------------10 8 8 8 8 8 8---------------------10 10 8 7 -------7 10 8 8 -------play beginning-----------------------------
: -----------------------------------------------------------------10 8 8 ----------------of 1st break and then back into main part--

: Upper register stuff...simple, on the G string its the ---12-14-15-14 and repeat

: the last little groove is
: ---------------------------------------------------
: ---------------------------------------------------
: --7 8---5 8---7 8---5 8---7 8---5 8----------------
: -8---5 6---6 8---5 6---6 8---5 6---6 repeat...out-

: i hopr this helps....just groove on it and you will pick up the little things...late....john

Man, that got all screwed up! everything is understandable except for
i will try again.

---------------------------------------------------------
7-7-7-7-7-7-7--------------5-6-7-7-7-7-7-7-7-7-----------
-------------10-8-8-8-8-8-8-------------------10---10----
---------------------------------------------------------

-----------------------------
-----------------7-10--------
8-7------7-10-8-8------------
---10-8-8--------------------

repeat...


Follow Ups:



Post a Followup

Name:
E-Mail:

Subject:

Comments:

Optional Link URL:
Link Title:
Optional Image URL:


[ Follow Ups ] [ Post Followup ] [ Electricbass.com WWWBoard ] [ FAQ ]