Re: Excersizes


[ Follow Ups ] [ Post Followup ] [ Electricbass.com WWWBoard ] [ FAQ ]

Posted by Metallittack on December 30, 2000 at 13:39:21:

In Reply to: Excersizes posted by Panther on December 30, 2000 at 11:41:50:

You should try to visit ActiveBass.com
I found that site a very helpful instructional site and I also found some useful warmup exercises.

Here is one that I usually do:

Repeat a few times
------1----3--------1----4----3----1-------------------------------
----2---4----------------------------------------------------------
------------------------------------------1-----2-----1---4---2----
---------------------------------------2-----4--------------------4

-----------------------------------5-----7
--------------------5----7------6-----8---
----5------7-----6----8-------------------
-6------8---------------------------------


These exercises help get your fingers stretched out.




Follow Ups:



Post a Followup

Name:
E-Mail:

Subject:

Comments:

Optional Link URL:
Link Title:
Optional Image URL:


[ Follow Ups ] [ Post Followup ] [ Electricbass.com WWWBoard ] [ FAQ ]